  0
SECTION
  2
HEADER
  9
$ACADVER
  1
AC1009
  9
$DWGCODEPAGE
  3
ansi_1252
  9
$INSBASE
 10
0.0
 20
0.0
 30
0.0
  9
$EXTMIN
 10
-66.81597
 20
-66.81597
 30
0.0
  9
$EXTMAX
 10
66.81597
 20
66.81597
 30
0.0
  9
$LIMMIN
 10
0.0
 20
0.0
  9
$LIMMAX
 10
12.0
 20
9.0
  9
$ORTHOMODE
 70
     0
  9
$REGENMODE
 70
     1
  9
$FILLMODE
 70
     1
  9
$QTEXTMODE
 70
     0
  9
$MIRRTEXT
 70
     1
  9
$DRAGMODE
 70
     2
  9
$LTSCALE
 40
1.0
  9
$OSMODE
 70
    37
  9
$ATTMODE
 70
     1
  9
$TEXTSIZE
 40
0.2
  9
$TRACEWID
 40
0.05
  9
$TEXTSTYLE
  7
STANDARD
  9
$CLAYER
  8
0
  9
$CELTYPE
  6
BYLAYER
  9
$CECOLOR
 62
   256
  9
$DIMSCALE
 40
1.0
  9
$DIMASZ
 40
0.18
  9
$DIMEXO
 40
0.0625
  9
$DIMDLI
 40
0.38
  9
$DIMRND
 40
0.0
  9
$DIMDLE
 40
0.0
  9
$DIMEXE
 40
0.18
  9
$DIMTP
 40
0.0
  9
$DIMTM
 40
0.0
  9
$DIMTXT
 40
0.18
  9
$DIMCEN
 40
0.09
  9
$DIMTSZ
 40
0.0
  9
$DIMTOL
 70
     0
  9
$DIMLIM
 70
     0
  9
$DIMTIH
 70
     1
  9
$DIMTOH
 70
     1
  9
$DIMSE1
 70
     0
  9
$DIMSE2
 70
     0
  9
$DIMTAD
 70
     0
  9
$DIMZIN
 70
     0
  9
$DIMBLK
  1

  9
$DIMASO
 70
     1
  9
$DIMSHO
 70
     1
  9
$DIMPOST
  1

  9
$DIMAPOST
  1

  9
$DIMALT
 70
     0
  9
$DIMALTD
 70
     2
  9
$DIMALTF
 40
25.4
  9
$DIMLFAC
 40
1.0
  9
$DIMTOFL
 70
     0
  9
$DIMTVP
 40
0.0
  9
$DIMTIX
 70
     0
  9
$DIMSOXD
 70
     0
  9
$DIMSAH
 70
     0
  9
$DIMBLK1
  1

  9
$DIMBLK2
  1

  9
$DIMSTYLE
  2
STANDARD
  9
$DIMCLRD
 70
     0
  9
$DIMCLRE
 70
     0
  9
$DIMCLRT
 70
     0
  9
$DIMTFAC
 40
1.0
  9
$DIMGAP
 40
0.09
  9
$LUNITS
 70
     2
  9
$LUPREC
 70
     4
  9
$SKETCHINC
 40
0.1
  9
$FILLETRAD
 40
0.5
  9
$AUNITS
 70
     0
  9
$AUPREC
 70
     0
  9
$MENU
  1
.
  9
$ELEVATION
 40
0.0
  9
$PELEVATION
 40
0.0
  9
$THICKNESS
 40
0.0
  9
$LIMCHECK
 70
     0
  9
$CHAMFERA
 40
0.0
  9
$CHAMFERB
 40
0.0
  9
$SKPOLY
 70
     0
  9
$TDCREATE
 40
2454910.5
  9
$TDUPDATE
 40
2458337.532233495
  9
$TDINDWG
 40
0.0000000116
  9
$TDUSRTIMER
 40
0.0000000116
  9
$USRTIMER
 70
     1
  9
$ANGBASE
 50
0.0
  9
$ANGDIR
 70
     0
  9
$PDMODE
 70
     0
  9
$PDSIZE
 40
0.0
  9
$PLINEWID
 40
0.0
  9
$COORDS
 70
     1
  9
$SPLFRAME
 70
     0
  9
$SPLINETYPE
 70
     6
  9
$SPLINESEGS
 70
     8
  9
$ATTDIA
 70
     0
  9
$ATTREQ
 70
     1
  9
$HANDLING
 70
     1
  9
$HANDSEED
  5
F8
  9
$SURFTAB1
 70
     6
  9
$SURFTAB2
 70
     6
  9
$SURFTYPE
 70
     6
  9
$SURFU
 70
     6
  9
$SURFV
 70
     6
  9
$UCSNAME
  2

  9
$UCSORG
 10
0.0
 20
0.0
 30
0.0
  9
$UCSXDIR
 10
1.0
 20
0.0
 30
0.0
  9
$UCSYDIR
 10
0.0
 20
1.0
 30
0.0
  9
$PUCSNAME
  2

  9
$PUCSORG
 10
0.0
 20
0.0
 30
0.0
  9
$PUCSXDIR
 10
1.0
 20
0.0
 30
0.0
  9
$PUCSYDIR
 10
0.0
 20
1.0
 30
0.0
  9
$USERI1
 70
     0
  9
$USERI2
 70
     0
  9
$USERI3
 70
     0
  9
$USERI4
 70
     0
  9
$USERI5
 70
     0
  9
$USERR1
 40
0.0
  9
$USERR2
 40
0.0
  9
$USERR3
 40
0.0
  9
$USERR4
 40
0.0
  9
$USERR5
 40
0.0
  9
$WORLDVIEW
 70
     1
  9
$SHADEDGE
 70
     3
  9
$SHADEDIF
 70
    70
  9
$TILEMODE
 70
     1
  9
$MAXACTVP
 70
    64
  9
$PLIMCHECK
 70
     0
  9
$PEXTMIN
 10
1.000000000000000E+20
 20
1.000000000000000E+20
 30
1.000000000000000E+20
  9
$PEXTMAX
 10
-1.000000000000000E+20
 20
-1.000000000000000E+20
 30
-1.000000000000000E+20
  9
$PLIMMIN
 10
0.0
 20
0.0
  9
$PLIMMAX
 10
12.0
 20
9.0
  9
$UNITMODE
 70
     0
  9
$VISRETAIN
 70
     1
  9
$PLINEGEN
 70
     0
  9
$PSLTSCALE
 70
     1
  0
ENDSEC
  0
SECTION
  2
TABLES
  0
TABLE
  2
VPORT
 70
     1
  0
VPORT
  2
*ACTIVE
 70
     0
 10
0.0
 20
0.0
 11
1.0
 21
1.0
 12
10.42990654205607
 22
4.5
 13
0.0
 23
0.0
 14
0.5
 24
0.5
 15
0.5
 25
0.5
 16
0.0
 26
0.0
 36
1.0
 17
0.0
 27
0.0
 37
0.0
 40
9.0
 41
1.972972972850329
 42
50.0
 43
0.0
 44
0.0
 50
0.0
 51
0.0
 71
     0
 72
   100
 73
     1
 74
     3
 75
     0
 76
     0
 77
     0
 78
     0
  0
ENDTAB
  0
TABLE
  2
LTYPE
 70
     2
  0
LTYPE
  2
CONTINUOUS
 70
     0
  3
Solid line
 72
    65
 73
     0
 40
0.0
  0
LTYPE
  2
CONTINUOUS2
 70
     0
  3
Solid Line
 72
    65
 73
     0
 40
0.0
  0
ENDTAB
  0
TABLE
  2
LAYER
 70
     2
  0
LAYER
  2
0
 70
     0
 62
     7
  6
CONTINUOUS
  0
LAYER
  2
PAGE_3
 70
     0
 62
    18
  6
CONTINUOUS
  0
ENDTAB
  0
TABLE
  2
STYLE
 70
     1
  0
STYLE
  2
STANDARD
 70
     0
 40
0.0
 41
1.0
 50
0.0
 71
     0
 42
0.2
  3
txt
  4

  0
ENDTAB
  0
TABLE
  2
VIEW
 70
     0
  0
ENDTAB
  0
TABLE
  2
UCS
 70
     0
  0
ENDTAB
  0
TABLE
  2
APPID
 70
     1
  0
APPID
  2
ACAD
 70
     0
  0
ENDTAB
  0
TABLE
  2
DIMSTYLE
 70
     1
  0
DIMSTYLE
  2
STANDARD
 70
     0
  3

  4

  5

  6

  7

 40
1.0
 41
0.18
 42
0.0625
 43
0.38
 44
0.18
 45
0.0
 46
0.0
 47
0.0
 48
0.0
140
0.18
141
0.09
142
0.0
143
25.4
144
1.0
145
0.0
146
1.0
147
0.09
 71
     0
 72
     0
 73
     1
 74
     1
 75
     0
 76
     0
 77
     0
 78
     0
170
     0
171
     2
172
     0
173
     0
174
     0
175
     0
176
     0
177
     0
178
     0
  0
ENDTAB
  0
ENDSEC
  0
SECTION
  2
BLOCKS
  0
BLOCK
  8
0
  2
$MODEL_SPACE
 70
     0
 10
0.0
 20
0.0
 30
0.0
  3
$MODEL_SPACE
  1

  0
ENDBLK
  5
21
  8
0
  0
BLOCK
 67
     1
  8
0
  2
$PAPER_SPACE
 70
     0
 10
0.0
 20
0.0
 30
0.0
  3
$PAPER_SPACE
  1

  0
ENDBLK
  5
1D
 67
     1
  8
0
  0
ENDSEC
  0
SECTION
  2
ENTITIES
  0
POLYLINE
  5
70
  8
PAGE_3
 66
     1
 10
0.0
 20
0.0
 30
0.0
  0
VERTEX
  5
84
  8
PAGE_3
 10
-63.78209554459064
 20
19.82605584769441
 30
0.0
  0
VERTEX
  5
85
  8
PAGE_3
 10
-64.48764974648171
 20
17.42719739943134
 30
0.0
  0
VERTEX
  5
86
  8
PAGE_3
 10
-65.05210602707785
 20
14.95773616100714
 30
0.0
  0
VERTEX
  5
87
  8
PAGE_3
 10
-65.61654077586851
 20
12.488274922583
 30
0.0
  0
VERTEX
  5
88
  8
PAGE_3
 10
-66.03987760336425
 20
10.01887827957525
 30
0.0
  0
VERTEX
  5
89
  8
PAGE_3
 10
-66.39265470430978
 20
7.549417041151049
 30
0.0
  0
VERTEX
  5
8A
  8
PAGE_3
 10
-66.60431235215488
 20
5.00941760798217
 30
0.0
  0
VERTEX
  5
8B
  8
PAGE_3
 10
-66.7454318052553
 20
2.469439706618739
 30
0.0
  0
VERTEX
  5
8C
  8
PAGE_3
 10
-66.81597
 20
-0.0000430636109606
 30
0.0
  0
SEQEND
  5
EB
  8
PAGE_3
  0
POLYLINE
  5
71
  8
PAGE_3
 66
     1
 10
0.0
 20
0.0
 30
0.0
  0
VERTEX
  5
8D
  8
PAGE_3
 10
-63.49987817019532
 20
21.73106080552244
 30
0.0
  0
VERTEX
  5
8E
  8
PAGE_3
 10
-63.49987817019532
 20
21.44886496293261
 30
0.0
  0
VERTEX
  5
8F
  8
PAGE_3
 10
-63.49987817019532
 20
21.23720731508746
 30
0.0
  0
VERTEX
  5
90
  8
PAGE_3
 10
-63.49987817019532
 20
21.02552813543686
 30
0.0
  0
VERTEX
  5
91
  8
PAGE_3
 10
-63.5704378967455
 20
20.74324616562508
 30
0.0
  0
VERTEX
  5
92
  8
PAGE_3
 10
-63.5704378967455
 20
20.53158851777999
 30
0.0
  0
VERTEX
  5
93
  8
PAGE_3
 10
-63.64097609149024
 20
20.31993086993484
 30
0.0
  0
VERTEX
  5
94
  8
PAGE_3
 10
-63.71155734984593
 20
20.037735027345
 30
0.0
  0
VERTEX
  5
95
  8
PAGE_3
 10
-63.78209554459064
 20
19.82605584769441
 30
0.0
  0
SEQEND
  5
EC
  8
PAGE_3
  0
POLYLINE
  5
72
  8
PAGE_3
 66
     1
 10
0.0
 20
0.0
 30
0.0
  0
VERTEX
  5
96
  8
PAGE_3
 10
-63.49987817019532
 20
66.81597
 30
0.0
  0
VERTEX
  5
97
  8
PAGE_3
 10
-63.49987817019532
 20
21.73106080552244
 30
0.0
  0
SEQEND
  5
ED
  8
PAGE_3
  0
POLYLINE
  5
73
  8
PAGE_3
 66
     1
 10
0.0
 20
0.0
 30
0.0
  0
VERTEX
  5
98
  8
PAGE_3
 10
63.49985663838981
 20
66.81597
 30
0.0
  0
VERTEX
  5
99
  8
PAGE_3
 10
-63.49987817019532
 20
66.81597
 30
0.0
  0
SEQEND
  5
EE
  8
PAGE_3
  0
POLYLINE
  5
74
  8
PAGE_3
 66
     1
 10
0.0
 20
0.0
 30
0.0
  0
VERTEX
  5
9A
  8
PAGE_3
 10
63.49985663838981
 20
21.73106080552244
 30
0.0
  0
VERTEX
  5
9B
  8
PAGE_3
 10
63.49985663838981
 20
66.81597
 30
0.0
  0
SEQEND
  5
EF
  8
PAGE_3
  0
POLYLINE
  5
75
  8
PAGE_3
 66
     1
 10
0.0
 20
0.0
 30
0.0
  0
VERTEX
  5
9C
  8
PAGE_3
 10
63.78209554459064
 20
19.82605584769441
 30
0.0
  0
VERTEX
  5
9D
  8
PAGE_3
 10
63.71151428623495
 20
20.037735027345
 30
0.0
  0
VERTEX
  5
9E
  8
PAGE_3
 10
63.71151428623495
 20
20.31993086993484
 30
0.0
  0
VERTEX
  5
9F
  8
PAGE_3
 10
63.64097609149028
 20
20.53158851777999
 30
0.0
  0
VERTEX
  5
A0
  8
PAGE_3
 10
63.57039483313454
 20
20.74324616562508
 30
0.0
  0
VERTEX
  5
A1
  8
PAGE_3
 10
63.57039483313454
 20
21.02552813543686
 30
0.0
  0
VERTEX
  5
A2
  8
PAGE_3
 10
63.49985663838981
 20
21.23720731508746
 30
0.0
  0
VERTEX
  5
A3
  8
PAGE_3
 10
63.49985663838981
 20
21.44886496293261
 30
0.0
  0
VERTEX
  5
A4
  8
PAGE_3
 10
63.49985663838981
 20
21.73106080552244
 30
0.0
  0
SEQEND
  5
F0
  8
PAGE_3
  0
POLYLINE
  5
76
  8
PAGE_3
 66
     1
 10
0.0
 20
0.0
 30
0.0
  0
VERTEX
  5
A5
  8
PAGE_3
 10
66.81597
 20
-0.0000430636109606
 30
0.0
  0
VERTEX
  5
A6
  8
PAGE_3
 10
66.74538874164425
 20
2.469439706618739
 30
0.0
  0
VERTEX
  5
A7
  8
PAGE_3
 10
66.60431235215484
 20
5.00941760798217
 30
0.0
  0
VERTEX
  5
A8
  8
PAGE_3
 10
66.39265470430975
 20
7.549417041151049
 30
0.0
  0
VERTEX
  5
A9
  8
PAGE_3
 10
66.03987760336425
 20
10.01887827957525
 30
0.0
  0
VERTEX
  5
AA
  8
PAGE_3
 10
65.61651924406304
 20
12.488274922583
 30
0.0
  0
VERTEX
  5
AB
  8
PAGE_3
 10
65.12266575362806
 20
14.95773616100714
 30
0.0
  0
VERTEX
  5
AC
  8
PAGE_3
 10
64.48764974648171
 20
17.42719739943134
 30
0.0
  0
VERTEX
  5
AD
  8
PAGE_3
 10
63.78209554459064
 20
19.82605584769441
 30
0.0
  0
SEQEND
  5
F1
  8
PAGE_3
  0
POLYLINE
  5
77
  8
PAGE_3
 66
     1
 10
0.0
 20
0.0
 30
0.0
  0
VERTEX
  5
AE
  8
PAGE_3
 10
60.4659821829805
 20
-66.81597
 30
0.0
  0
VERTEX
  5
AF
  8
PAGE_3
 10
61.45373222746135
 20
-66.74543180525527
 30
0.0
  0
VERTEX
  5
B0
  8
PAGE_3
 10
62.44152533555327
 20
-66.53377415741014
 30
0.0
  0
VERTEX
  5
B1
  8
PAGE_3
 10
63.35873718528943
 20
-66.11043732991442
 30
0.0
  0
VERTEX
  5
B2
  8
PAGE_3
 10
64.20541084028089
 20
-65.61658383947943
 30
0.0
  0
VERTEX
  5
B3
  8
PAGE_3
 10
64.9815463005276
 20
-64.98156783233311
 30
0.0
  0
VERTEX
  5
B4
  8
PAGE_3
 10
65.61651924406304
 20
-64.20543237208635
 30
0.0
  0
VERTEX
  5
B5
  8
PAGE_3
 10
66.11041579810892
 20
-63.35878024890039
 30
0.0
  0
VERTEX
  5
B6
  8
PAGE_3
 10
66.53373109379922
 20
-62.44158993096969
 30
0.0
  0
VERTEX
  5
B7
  8
PAGE_3
 10
66.74538874164425
 20
-61.45377529107233
 30
0.0
  0
VERTEX
  5
B8
  8
PAGE_3
 10
66.81597
 20
-60.46598218298045
 30
0.0
  0
SEQEND
  5
F2
  8
PAGE_3
  0
POLYLINE
  5
78
  8
PAGE_3
 66
     1
 10
0.0
 20
0.0
 30
0.0
  0
VERTEX
  5
B9
  8
PAGE_3
 10
-60.46598218298048
 20
-66.81597
 30
0.0
  0
VERTEX
  5
BA
  8
PAGE_3
 10
60.4659821829805
 20
-66.81597
 30
0.0
  0
SEQEND
  5
F3
  8
PAGE_3
  0
POLYLINE
  5
79
  8
PAGE_3
 66
     1
 10
0.0
 20
0.0
 30
0.0
  0
VERTEX
  5
BB
  8
PAGE_3
 10
-66.81597
 20
-60.46598218298045
 30
0.0
  0
VERTEX
  5
BC
  8
PAGE_3
 10
-66.67487207870512
 20
-61.45377529107233
 30
0.0
  0
VERTEX
  5
BD
  8
PAGE_3
 10
-66.46321443085996
 20
-62.44158993096969
 30
0.0
  0
VERTEX
  5
BE
  8
PAGE_3
 10
-66.11043732991442
 20
-63.35878024890039
 30
0.0
  0
VERTEX
  5
BF
  8
PAGE_3
 10
-65.5459810493183
 20
-64.20543237208635
 30
0.0
  0
VERTEX
  5
C0
  8
PAGE_3
 10
-64.91098657397742
 20
-64.98156783233311
 30
0.0
  0
VERTEX
  5
C1
  8
PAGE_3
 10
-64.13489417734165
 20
-65.61658383947943
 30
0.0
  0
VERTEX
  5
C2
  8
PAGE_3
 10
-63.28822052235021
 20
-66.11043732991442
 30
0.0
  0
VERTEX
  5
C3
  8
PAGE_3
 10
-62.37098714080853
 20
-66.53377415741014
 30
0.0
  0
VERTEX
  5
C4
  8
PAGE_3
 10
-61.45377529107235
 20
-66.74543180525527
 30
0.0
  0
VERTEX
  5
C5
  8
PAGE_3
 10
-60.46598218298048
 20
-66.81597
 30
0.0
  0
SEQEND
  5
F4
  8
PAGE_3
  0
POLYLINE
  5
7A
  8
PAGE_3
 66
     1
 10
0.0
 20
0.0
 30
0.0
  0
VERTEX
  5
C6
  8
PAGE_3
 10
-66.81597
 20
-0.0000430636109606
 30
0.0
  0
VERTEX
  5
C7
  8
PAGE_3
 10
-66.81597
 20
-60.46598218298045
 30
0.0
  0
SEQEND
  5
F5
  8
PAGE_3
  0
POLYLINE
  5
7B
  8
PAGE_3
 66
     1
 10
0.0
 20
0.0
 30
0.0
 70
     1
  0
VERTEX
  5
C8
  8
PAGE_3
 10
50.33075759423392
 20
-5.442340028168703
 30
0.0
 42
0.4142135623730951
  0
VERTEX
  5
C9
  8
PAGE_3
 10
45.25075759425422
 20
-10.52234002814839
 30
0.0
 42
0.4142135623730951
  0
VERTEX
  5
CA
  8
PAGE_3
 10
50.33075759423392
 20
-15.60234002812807
 30
0.0
 42
0.4142135623730951
  0
VERTEX
  5
CB
  8
PAGE_3
 10
55.41075759421359
 20
-10.52234002814839
 30
0.0
 42
0.4142135623730951
  0
SEQEND
  5
F6
  8
PAGE_3
  0
POLYLINE
  5
7C
  8
PAGE_3
 66
     1
 10
0.0
 20
0.0
 30
0.0
  0
VERTEX
  5
CC
  8
PAGE_3
 10
66.81597
 20
-0.0000430636109606
 30
0.0
  0
VERTEX
  5
CD
  8
PAGE_3
 10
66.81597
 20
-22.30001288710038
 30
0.0
 42
-0.4148787117313846
  0
VERTEX
  5
CE
  8
PAGE_3
 10
61.80461787080718
 20
-27.3
 30
0.0
  0
VERTEX
  5
CF
  8
PAGE_3
 10
36.55597136832917
 20
-27.3
 30
0.0
 42
-0.4149834746327646
  0
VERTEX
  5
D0
  8
PAGE_3
 10
31.55598863334843
 20
-22.28686036929913
 30
0.0
  0
VERTEX
  5
D1
  8
PAGE_3
 10
31.55626910216679
 20
-14.96066947159222
 30
0.0
 42
-0.0975852938283533
  0
VERTEX
  5
D2
  8
PAGE_3
 10
31.92992638861261
 20
-13.06445611315499
 30
0.0
  0
VERTEX
  5
D3
  8
PAGE_3
 10
32.23457741102801
 20
-12.29431245972302
 30
0.0
  0
VERTEX
  5
D4
  8
PAGE_3
 10
32.52084303148727
 20
-11.51646980660104
 30
0.0
  0
VERTEX
  5
D5
  8
PAGE_3
 10
32.78854808121804
 20
-10.73125265790432
 30
0.0
  0
VERTEX
  5
D6
  8
PAGE_3
 10
33.03751739144793
 20
-9.938985517748147
 30
0.0
  0
VERTEX
  5
D7
  8
PAGE_3
 10
33.2675757934046
 20
-9.139992890247802
 30
0.0
  0
VERTEX
  5
D8
  8
PAGE_3
 10
33.47854811831569
 20
-8.334599279518573
 30
0.0
  0
VERTEX
  5
D9
  8
PAGE_3
 10
33.67025919740884
 20
-7.523129189675741
 30
0.0
  0
VERTEX
  5
DA
  8
PAGE_3
 10
33.84253386191168
 20
-6.705907124834591
 30
0.0
  0
VERTEX
  5
DB
  8
PAGE_3
 10
33.99519694305184
 20
-5.883257589110409
 30
0.0
  0
VERTEX
  5
DC
  8
PAGE_3
 10
34.12807327205698
 20
-5.055505086618473
 30
0.0
  0
VERTEX
  5
DD
  8
PAGE_3
 10
34.24098768015473
 20
-4.222974121474072
 30
0.0
  0
VERTEX
  5
DE
  8
PAGE_3
 10
34.33376499857273
 20
-3.385989197792489
 30
0.0
  0
VERTEX
  5
DF
  8
PAGE_3
 10
34.40623005853863
 20
-2.544874819689005
 30
0.0
  0
VERTEX
  5
E0
  8
PAGE_3
 10
34.45820769128004
 20
-1.699955491278907
 30
0.0
  0
VERTEX
  5
E1
  8
PAGE_3
 10
34.48952272802461
 20
-0.8515557166774773
 30
0.0
  0
VERTEX
  5
E2
  8
PAGE_3
 10
34.5
 20
0.0
 30
0.0
 42
0.4142135623730951
  0
VERTEX
  5
E3
  8
PAGE_3
 10
0.0
 20
34.5
 30
0.0
 42
0.4142135623730951
  0
VERTEX
  5
E4
  8
PAGE_3
 10
-34.5
 20
0.0
 30
0.0
 42
0.4142135623730951
  0
VERTEX
  5
E5
  8
PAGE_3
 10
0.0
 20
-34.5
 30
0.0
  0
VERTEX
  5
E6
  8
PAGE_3
 10
61.81596999999996
 20
-34.5
 30
0.0
 42
-0.4142135623730925
  0
VERTEX
  5
E7
  8
PAGE_3
 10
66.81597
 20
-39.5
 30
0.0
  0
VERTEX
  5
E8
  8
PAGE_3
 10
66.81597
 20
-60.46598218298045
 30
0.0
  0
SEQEND
  5
F7
  8
PAGE_3
  0
ENDSEC
  0
EOF
